  0
SECTION
  2
HEADER
  9
$ACADVER
  1
AC1015
  9
$ACADMAINTVER
 70
     6
  9
$DWGCODEPAGE
  3
ANSI_1254
  9
$INSBASE
 10
0.0
 20
0.0
 30
0.0
  9
$EXTMIN
 10
0.0
 20
0.0
 30
0.0
  9
$EXTMAX
 10
279.4
 20
215.9
 30
0.0
  9
$LIMMIN
 10
0.0
 20
0.0
  9
$LIMMAX
 10
279.4
 20
215.9
  9
$ORTHOMODE
 70
     0
  9
$REGENMODE
 70
     1
  9
$FILLMODE
 70
     1
  9
$QTEXTMODE
 70
     0
  9
$MIRRTEXT
 70
     1
  9
$LTSCALE
 40
1.0
  9
$ATTMODE
 70
     1
  9
$TEXTSIZE
 40
3.5
  9
$TRACEWID
 40
1.0
  9
$TEXTSTYLE
  7
Standard
  9
$CLAYER
  8
0
  9
$CELTYPE
  6
ByLayer
  9
$CECOLOR
 62
   256
  9
$CELTSCALE
 40
1.0
  9
$DISPSILH
 70
     0
  9
$DIMSCALE
 40
1.0
  9
$DIMASZ
 40
3.5
  9
$DIMEXO
 40
1.0
  9
$DIMDLI
 40
3.75
  9
$DIMRND
 40
0.0
  9
$DIMDLE
 40
0.0
  9
$DIMEXE
 40
1.0
  9
$DIMTP
 40
0.0
  9
$DIMTM
 40
0.0
  9
$DIMTXT
 40
3.5
  9
$DIMCEN
 40
2.5
  9
$DIMTSZ
 40
0.0
  9
$DIMTOL
 70
     0
  9
$DIMLIM
 70
     0
  9
$DIMTIH
 70
     1
  9
$DIMTOH
 70
     1
  9
$DIMSE1
 70
     0
  9
$DIMSE2
 70
     0
  9
$DIMTAD
 70
     1
  9
$DIMZIN
 70
     0
  9
$DIMBLK
  1

  9
$DIMASO
 70
     1
  9
$DIMSHO
 70
     1
  9
$DIMPOST
  1

  9
$DIMAPOST
  1

  9
$DIMALT
 70
     0
  9
$DIMALTD
 70
     3
  9
$DIMALTF
 40
0.0393700787
  9
$DIMLFAC
 40
1.0
  9
$DIMTOFL
 70
     1
  9
$DIMTVP
 40
0.0
  9
$DIMTIX
 70
     0
  9
$DIMSOXD
 70
     0
  9
$DIMSAH
 70
     0
  9
$DIMBLK1
  1

  9
$DIMBLK2
  1

  9
$DIMSTYLE
  2
ISO-25
  9
$DIMCLRD
 70
     0
  9
$DIMCLRE
 70
     0
  9
$DIMCLRT
 70
     0
  9
$DIMTFAC
 40
1.0
  9
$DIMGAP
 40
1.524
  9
$DIMJUST
 70
     0
  9
$DIMSD1
 70
     0
  9
$DIMSD2
 70
     0
  9
$DIMTOLJ
 70
     0
  9
$DIMTZIN
 70
     0
  9
$DIMALTZ
 70
     0
  9
$DIMALTTZ
 70
     0
  9
$DIMUPT
 70
     0
  9
$DIMDEC
 70
     2
  9
$DIMTDEC
 70
     2
  9
$DIMALTU
 70
     2
  9
$DIMALTTD
 70
     3
  9
$DIMTXSTY
  7
Standard
  9
$DIMAUNIT
 70
     0
  9
$DIMADEC
 70
     2
  9
$DIMALTRND
 40
0.0
  9
$DIMAZIN
 70
     0
  9
$DIMDSEP
 70
    44
  9
$DIMATFIT
 70
     3
  9
$DIMFRAC
 70
     0
  9
$DIMLDRBLK
  1

  9
$DIMLUNIT
 70
     2
  9
$DIMLWD
 70
    -2
  9
$DIMLWE
 70
    -2
  9
$DIMTMOVE
 70
     0
  9
$LUNITS
 70
     2
  9
$LUPREC
 70
     2
  9
$SKETCHINC
 40
1.0
  9
$FILLETRAD
 40
10.0
  9
$AUNITS
 70
     0
  9
$AUPREC
 70
     2
  9
$MENU
  1
.
  9
$ELEVATION
 40
0.0
  9
$PELEVATION
 40
0.0
  9
$THICKNESS
 40
0.0
  9
$LIMCHECK
 70
     0
  9
$CHAMFERA
 40
0.0
  9
$CHAMFERB
 40
0.0
  9
$CHAMFERC
 40
0.0
  9
$CHAMFERD
 40
0.0
  9
$SKPOLY
 70
     0
  9
$TDCREATE
 40
2458985.651366852
  9
$TDUCREATE
 40
2458985.526366852
  9
$TDUPDATE
 40
2458985.651367222
  9
$TDUUPDATE
 40
2458985.526367222
  9
$TDINDWG
 40
0.0000000116
  9
$TDUSRTIMER
 40
0.0000000116
  9
$USRTIMER
 70
     1
  9
$ANGBASE
 50
0.0
  9
$ANGDIR
 70
     0
  9
$PDMODE
 70
     0
  9
$PDSIZE
 40
-1.0
  9
$PLINEWID
 40
0.0
  9
$SPLFRAME
 70
     0
  9
$SPLINETYPE
 70
     6
  9
$SPLINESEGS
 70
     8
  9
$HANDSEED
  5
BF
  9
$SURFTAB1
 70
     6
  9
$SURFTAB2
 70
     6
  9
$SURFTYPE
 70
     6
  9
$SURFU
 70
     6
  9
$SURFV
 70
     6
  9
$UCSBASE
  2

  9
$UCSNAME
  2

  9
$UCSORG
 10
0.0
 20
0.0
 30
0.0
  9
$UCSXDIR
 10
1.0
 20
0.0
 30
0.0
  9
$UCSYDIR
 10
0.0
 20
1.0
 30
0.0
  9
$UCSORTHOREF
  2

  9
$UCSORTHOVIEW
 70
     0
  9
$UCSORGTOP
 10
0.0
 20
0.0
 30
0.0
  9
$UCSORGBOTTOM
 10
0.0
 20
0.0
 30
0.0
  9
$UCSORGLEFT
 10
0.0
 20
0.0
 30
0.0
  9
$UCSORGRIGHT
 10
0.0
 20
0.0
 30
0.0
  9
$UCSORGFRONT
 10
0.0
 20
0.0
 30
0.0
  9
$UCSORGBACK
 10
0.0
 20
0.0
 30
0.0
  9
$PUCSBASE
  2

  9
$PUCSNAME
  2

  9
$PUCSORG
 10
0.0
 20
0.0
 30
0.0
  9
$PUCSXDIR
 10
1.0
 20
0.0
 30
0.0
  9
$PUCSYDIR
 10
0.0
 20
1.0
 30
0.0
  9
$PUCSORTHOREF
  2

  9
$PUCSORTHOVIEW
 70
     0
  9
$PUCSORGTOP
 10
0.0
 20
0.0
 30
0.0
  9
$PUCSORGBOTTOM
 10
0.0
 20
0.0
 30
0.0
  9
$PUCSORGLEFT
 10
0.0
 20
0.0
 30
0.0
  9
$PUCSORGRIGHT
 10
0.0
 20
0.0
 30
0.0
  9
$PUCSORGFRONT
 10
0.0
 20
0.0
 30
0.0
  9
$PUCSORGBACK
 10
0.0
 20
0.0
 30
0.0
  9
$USERI1
 70
     0
  9
$USERI2
 70
     0
  9
$USERI3
 70
     0
  9
$USERI4
 70
     0
  9
$USERI5
 70
     0
  9
$USERR1
 40
0.0
  9
$USERR2
 40
0.0
  9
$USERR3
 40
0.0
  9
$USERR4
 40
0.0
  9
$USERR5
 40
0.0
  9
$WORLDVIEW
 70
     1
  9
$SHADEDGE
 70
     3
  9
$SHADEDIF
 70
    70
  9
$TILEMODE
 70
     1
  9
$MAXACTVP
 70
    64
  9
$PINSBASE
 10
0.0
 20
0.0
 30
0.0
  9
$PLIMCHECK
 70
     0
  9
$PEXTMIN
 10
1.0000000000E+20
 20
1.0000000000E+20
 30
1.0000000000E+20
  9
$PEXTMAX
 10
-1.0000000000E+20
 20
-1.0000000000E+20
 30
-1.0000000000E+20
  9
$PLIMMIN
 10
0.0
 20
0.0
  9
$PLIMMAX
 10
420.0
 20
297.0
  9
$UNITMODE
 70
     0
  9
$VISRETAIN
 70
     1
  9
$PLINEGEN
 70
     0
  9
$PSLTSCALE
 70
     1
  9
$TREEDEPTH
 70
  3020
  9
$CMLSTYLE
  2
Standard
  9
$CMLJUST
 70
     0
  9
$CMLSCALE
 40
20.0
  9
$PROXYGRAPHICS
 70
     1
  9
$MEASUREMENT
 70
     1
  9
$CELWEIGHT
370
    -1
  9
$ENDCAPS
280
     0
  9
$JOINSTYLE
280
     0
  9
$LWDISPLAY
290
     1
  9
$INSUNITS
 70
     4
  9
$HYPERLINKBASE
  1

  9
$STYLESHEET
  1

  9
$XEDIT
290
     1
  9
$CEPSNTYPE
380
     0
  9
$PSTYLEMODE
290
     1
  9
$FINGERPRINTGUID
  2
{e532c513-68e7-4815-a348-3f690d57d770}
  9
$VERSIONGUID
  2
{FAEB1C32-E019-11D5-929B-00C0DF256EC4}
  9
$EXTNAMES
290
     1
  9
$PSVPSCALE
 40
0.0
  9
$OLESTARTUP
290
     0
  0
ENDSEC
  0
SECTION
  2
CLASSES
  0
CLASS
  1
ACDBDICTIONARYWDFLT
  2
AcDbDictionaryWithDefault
  3
ObjectDBX Classes
 90
        0
280
     0
281
     0
  0
CLASS
  1
VISUALSTYLE
  2
AcDbVisualStyle
  3
ObjectDBX Classes
 90
     4095
280
     0
281
     0
  0
CLASS
  1
MATERIAL
  2
AcDbMaterial
  3
ObjectDBX Classes
 90
     1153
280
     0
281
     0
  0
CLASS
  1
SCALE
  2
AcDbScale
  3
ObjectDBX Classes
 90
     1153
280
     0
281
     0
  0
CLASS
  1
TABLESTYLE
  2
AcDbTableStyle
  3
ObjectDBX Classes
 90
     4095
280
     0
281
     0
  0
CLASS
  1
MLEADERSTYLE
  2
AcDbMLeaderStyle
  3
ACDB_MLEADERSTYLE_CLASS
 90
     4095
280
     0
281
     0
  0
CLASS
  1
SUN
  2
AcDbSun
  3
SCENEOE
 90
     1153
280
     0
281
     0
  0
CLASS
  1
ACDBPLACEHOLDER
  2
AcDbPlaceHolder
  3
ObjectDBX Classes
 90
        0
280
     0
281
     0
  0
CLASS
  1
LAYOUT
  2
AcDbLayout
  3
ObjectDBX Classes
 90
        0
280
     0
281
     0
  0
ENDSEC
  0
SECTION
  2
TABLES
  0
TABLE
  2
VPORT
  5
8
330
0
100
AcDbSymbolTable
 70
     1
  0
VPORT
  5
29
330
8
100
AcDbSymbolTableRecord
100
AcDbViewportTableRecord
  2
*Active
 70
     0
 10
0.0
 20
0.0
 11
1.0
 21
1.0
 12
139.7
 22
107.95
 13
0.0
 23
0.0
 14
10.0
 24
10.0
 15
10.0
 25
10.0
 16
0.0
 26
0.0
 36
1.0
 17
0.0
 27
0.0
 37
0.0
 40
215.9
 41
1.2941176471
 42
50.0
 43
0.0
 44
0.0
 50
0.0
 51
0.0
 71
     0
 72
  2000
 73
     1
 74
     3
 75
     0
 76
     0
 77
     0
 78
     0
281
     0
 65
     1
110
0.0
120
0.0
130
0.0
111
1.0
121
0.0
131
0.0
112
0.0
122
1.0
132
0.0
 79
     0
146
0.0
  0
ENDTAB
  0
TABLE
  2
LTYPE
  5
5
330
0
100
AcDbSymbolTable
 70
     6
  0
LTYPE
  5
14
330
5
100
AcDbSymbolTableRecord
100
AcDbLinetypeTableRecord
  2
ByBlock
 70
     0
  3

 72
    65
 73
     0
 40
0.0
  0
LTYPE
  5
15
330
5
100
AcDbSymbolTableRecord
100
AcDbLinetypeTableRecord
  2
ByLayer
 70
     0
  3

 72
    65
 73
     0
 40
0.0
  0
LTYPE
  5
16
330
5
100
AcDbSymbolTableRecord
100
AcDbLinetypeTableRecord
  2
Continuous
 70
     0
  3
Solid line
 72
    65
 73
     0
 40
0.0
  0
LTYPE
  5
6E
330
5
100
AcDbSymbolTableRecord
100
AcDbLinetypeTableRecord
  2
HIDDEN
 70
     0
  3
Hidden __ __ __ __ __ __ __ __ __ __ __ __ __ __
 72
    65
 73
     2
 40
1.905
 49
1.27
 74
     0
 49
-0.635
 74
     0
  0
LTYPE
  5
6F
330
5
100
AcDbSymbolTableRecord
100
AcDbLinetypeTableRecord
  2
PHANTOM
 70
     0
  3
Phantom ______  __  __  ______  __  __  ______
 72
    65
 73
     6
 40
12.7
 49
6.35
 74
     0
 49
-1.27
 74
     0
 49
1.27
 74
     0
 49
-1.27
 74
     0
 49
1.27
 74
     0
 49
-1.27
 74
     0
  0
LTYPE
  5
70
330
5
100
AcDbSymbolTableRecord
100
AcDbLinetypeTableRecord
  2
CENTER
 70
     0
  3
Center ____ _ ____ _ ____ _ ____ _ ____ _ ____
 72
    65
 73
     4
 40
10.16
 49
6.35
 74
     0
 49
-1.27
 74
     0
 49
1.27
 74
     0
 49
-1.27
 74
     0
  0
LTYPE
  5
71
330
5
100
AcDbSymbolTableRecord
100
AcDbLinetypeTableRecord
  2
CENTERX2
 70
     0
  3
Center (2x) ________  __  ________  __  _____
 72
    65
 73
     4
 40
20.32
 49
12.7
 74
     0
 49
-2.54
 74
     0
 49
2.54
 74
     0
 49
-2.54
 74
     0
  0
LTYPE
  5
72
330
5
100
AcDbSymbolTableRecord
100
AcDbLinetypeTableRecord
  2
DOT2
 70
     0
  3
Dot (.5x) ........................................
 72
    65
 73
     2
 40
0.635
 49
0.0
 74
     0
 49
-0.635
 74
     0
  0
ENDTAB
  0
TABLE
  2
LAYER
  5
2
330
0
100
AcDbSymbolTable
 70
    17
  0
LAYER
  5
10
330
2
100
AcDbSymbolTableRecord
100
AcDbLayerTableRecord
  2
0
 70
     0
 62
     7
  6
Continuous
370
    -3
390
F
  0
LAYER
  5
73
330
2
100
AcDbSymbolTableRecord
100
AcDbLayerTableRecord
  2
FORMAT
 70
     0
 62
     7
  6
Continuous
370
    -3
390
F
  0
LAYER
  5
74
330
2
100
AcDbSymbolTableRecord
100
AcDbLayerTableRecord
  2
YARDIMCI_GEOMETRI
 70
     0
 62
    -6
  6
Continuous
290
     0
370
    -3
390
F
  0
LAYER
  5
75
330
2
100
AcDbSymbolTableRecord
100
AcDbLayerTableRecord
  2
SAYFA_CERCEVESI
 70
     0
 62
     7
  6
Continuous
370
    25
390
F
  0
LAYER
  5
76
330
2
100
AcDbSymbolTableRecord
100
AcDbLayerTableRecord
  2
ANTET
 70
     0
 62
     7
  6
Continuous
370
    -3
390
F
  0
LAYER
  5
77
330
2
100
AcDbSymbolTableRecord
100
AcDbLayerTableRecord
  2
OLCU
 70
     0
 62
   150
  6
Continuous
370
    -3
390
F
  0
LAYER
  5
78
330
2
100
AcDbSymbolTableRecord
100
AcDbLayerTableRecord
  2
METIN
 70
     0
 62
    96
  6
Continuous
370
    -3
390
F
  0
LAYER
  5
79
330
2
100
AcDbSymbolTableRecord
100
AcDbLayerTableRecord
  2
BALON
 70
     0
 62
     5
  6
Continuous
370
    -3
390
F
  0
LAYER
  5
7A
330
2
100
AcDbSymbolTableRecord
100
AcDbLayerTableRecord
  2
VURGU
 70
     0
 62
     7
  6
Continuous
370
    -3
390
F
  0
LAYER
  5
7B
330
2
100
AcDbSymbolTableRecord
100
AcDbLayerTableRecord
  2
SILIK
 70
     0
 62
     7
  6
Continuous
370
    -3
390
F
  0
LAYER
  5
7C
330
2
100
AcDbSymbolTableRecord
100
AcDbLayerTableRecord
  2
MODEL
 70
     0
 62
     7
  6
Continuous
370
    -3
390
F
  0
LAYER
  5
7D
330
2
100
AcDbSymbolTableRecord
100
AcDbLayerTableRecord
  2
DETAYLANDıRMA
 70
     0
 62
   190
  6
Continuous
370
    -3
390
F
  0
LAYER
  5
7E
330
2
100
AcDbSymbolTableRecord
100
AcDbLayerTableRecord
  2
TOLERANS
 70
     0
 62
   230
  6
Continuous
370
    -3
390
F
  0
LAYER
  5
7F
330
2
100
AcDbSymbolTableRecord
100
AcDbLayerTableRecord
  2
MERKEZ_CIZGILERI
 70
     0
 62
    30
  6
Continuous
370
    -3
390
F
  0
LAYER
  5
80
330
2
100
AcDbSymbolTableRecord
100
AcDbLayerTableRecord
  2
KESIT-DETAY_CIZGILERI
 70
     0
 62
     7
  6
Continuous
370
    -3
390
F
  0
LAYER
  5
81
330
2
100
AcDbSymbolTableRecord
100
AcDbLayerTableRecord
  2
\U+041E\U+0421\U+0415\U+0412\U+042B\U+0415
 70
     0
 62
     7
  6
Continuous
370
    -3
390
F
  0
LAYER
  5
82
330
2
100
AcDbSymbolTableRecord
100
AcDbLayerTableRecord
  2
\U+0412\U+041E\U+0414\U+042F\U+041D\U+042B\U+0415_\U+0417\U+041D\U+0410\U+041A\U+0418
 70
     0
 62
    11
  6
Continuous
370
    -3
390
F
  0
ENDTAB
  0
TABLE
  2
STYLE
  5
3
330
0
100
AcDbSymbolTable
 70
     1
  0
STYLE
  5
11
330
3
100
AcDbSymbolTableRecord
100
AcDbTextStyleTableRecord
  2
Standard
 70
     0
 40
0.0
 41
1.0
 50
0.0
 71
     0
 42
3.5
  3
txt
  4

  0
ENDTAB
  0
TABLE
  2
VIEW
  5
6
330
0
100
AcDbSymbolTable
 70
     0
  0
ENDTAB
  0
TABLE
  2
UCS
  5
7
330
0
100
AcDbSymbolTable
 70
     0
  0
ENDTAB
  0
TABLE
  2
APPID
  5
9
330
0
100
AcDbSymbolTable
 70
     1
  0
APPID
  5
12
330
9
100
AcDbSymbolTableRecord
100
AcDbRegAppTableRecord
  2
ACAD
 70
     0
  0
ENDTAB
  0
TABLE
  2
DIMSTYLE
  5
A
330
0
100
AcDbSymbolTable
 70
     1
100
AcDbDimStyleTable
  0
DIMSTYLE
105
27
330
A
100
AcDbSymbolTableRecord
100
AcDbDimStyleTableRecord
  2
ISO-25
 70
     0
 41
2.5
 42
0.625
 43
3.75
 44
1.25
 73
     0
 74
     0
 77
     1
 78
     8
140
2.5
141
2.5
143
0.0393700787
147
0.625
171
     3
172
     1
178
     0
271
     2
272
     2
274
     3
278
    44
283
     0
284
     8
340
11
  0
ENDTAB
  0
TABLE
  2
BLOCK_RECORD
  5
1
330
0
100
AcDbSymbolTable
 70
     1
  0
BLOCK_RECORD
  5
1F
330
1
100
AcDbSymbolTableRecord
100
AcDbBlockTableRecord
  2
*Model_Space
340
22
  0
BLOCK_RECORD
  5
1B
330
1
100
AcDbSymbolTableRecord
100
AcDbBlockTableRecord
  2
*Paper_Space
340
1E
  0
BLOCK_RECORD
  5
23
330
1
100
AcDbSymbolTableRecord
100
AcDbBlockTableRecord
  2
*Paper_Space0
340
26
  0
ENDTAB
  0
ENDSEC
  0
SECTION
  2
BLOCKS
  0
BLOCK
  5
20
330
1F
100
AcDbEntity
  8
0
100
AcDbBlockBegin
  2
*Model_Space
 70
     0
 10
0.0
 20
0.0
 30
0.0
  3
*Model_Space
  1

  0
ENDBLK
  5
21
330
1F
100
AcDbEntity
  8
0
100
AcDbBlockEnd
  0
BLOCK
  5
1C
330
1B
100
AcDbEntity
 67
     1
  8
0
100
AcDbBlockBegin
  2
*Paper_Space
 70
     0
 10
0.0
 20
0.0
 30
0.0
  3
*Paper_Space
  1

  0
ENDBLK
  5
1D
330
1B
100
AcDbEntity
 67
     1
  8
0
100
AcDbBlockEnd
  0
BLOCK
  5
24
330
23
100
AcDbEntity
  8
0
100
AcDbBlockBegin
  2
*Paper_Space0
 70
     0
 10
0.0
 20
0.0
 30
0.0
  3
*Paper_Space0
  1

  0
ENDBLK
  5
25
330
23
100
AcDbEntity
  8
0
100
AcDbBlockEnd
  0
ENDSEC
  0
SECTION
  2
ENTITIES
  0
CIRCLE
  5
83
330
1F
100
AcDbEntity
  8
0
  6
Continuous
 62
     7
370
    25
100
AcDbCircle
 10
135.9944086538
 20
118.27271875
 30
0.0
 40
140.0
  0
CIRCLE
  5
84
330
1F
100
AcDbEntity
  8
0
  6
Continuous
 62
     7
370
    25
100
AcDbCircle
 10
135.9944086538
 20
118.27271875
 30
0.0
 40
123.4
  0
CIRCLE
  5
85
330
1F
100
AcDbEntity
  8
0
  6
Continuous
 62
     7
370
    25
100
AcDbCircle
 10
135.9944086538
 20
118.27271875
 30
0.0
 40
144.0
  0
CIRCLE
  5
86
330
1F
100
AcDbEntity
  8
0
  6
Continuous
 62
     7
370
    25
100
AcDbCircle
 10
135.9944086538
 20
118.27271875
 30
0.0
 40
160.0
  0
LINE
  5
87
330
1F
100
AcDbEntity
  8
0
  6
Continuous
 62
     7
370
    25
100
AcDbLine
 10
295.9944086538
 20
387.071236337
 30
0.0
 11
295.9944086538
 21
422.071236337
 31
0.0
  0
LINE
  5
88
330
1F
100
AcDbEntity
  8
0
  6
Continuous
 62
     7
370
    25
100
AcDbLine
 10
-24.0055913462
 20
422.071236337
 30
0.0
 11
-24.0055913462
 21
387.071236337
 31
0.0
  0
LINE
  5
89
330
1F
100
AcDbEntity
  8
0
  6
Continuous
 62
     7
370
    25
100
AcDbLine
 10
279.9944086538
 20
422.071236337
 30
0.0
 11
275.9944086538
 21
445.071236337
 31
0.0
  0
LINE
  5
8A
330
1F
100
AcDbEntity
  8
0
  6
Continuous
 62
     7
370
    25
100
AcDbLine
 10
-4.0055913462
 20
445.071236337
 30
0.0
 11
-8.0055913462
 21
422.071236337
 31
0.0
  0
LINE
  5
8B
330
1F
100
AcDbEntity
  8
0
  6
Continuous
 62
     7
370
    25
100
AcDbLine
 10
275.9944086538
 20
445.071236337
 30
0.0
 11
275.9944086538
 21
600.071236337
 31
0.0
  0
LINE
  5
8C
330
1F
100
AcDbEntity
  8
0
  6
Continuous
 62
     7
370
    25
100
AcDbLine
 10
-4.0055913462
 20
600.071236337
 30
0.0
 11
-4.0055913462
 21
445.071236337
 31
0.0
  0
LINE
  5
8D
330
1F
100
AcDbEntity
  8
0
  6
Continuous
 62
     7
370
    25
100
AcDbLine
 10
295.9944086538
 20
387.071236337
 30
0.0
 11
-24.0055913462
 21
387.071236337
 31
0.0
  0
LINE
  5
8E
330
1F
100
AcDbEntity
  8
0
  6
Continuous
 62
     7
370
    25
100
AcDbLine
 10
295.9944086538
 20
422.071236337
 30
0.0
 11
-24.0055913462
 21
422.071236337
 31
0.0
  0
LINE
  5
8F
330
1F
100
AcDbEntity
  8
0
  6
Continuous
 62
     7
370
    25
100
AcDbLine
 10
275.9944086538
 20
445.071236337
 30
0.0
 11
-4.0055913462
 21
445.071236337
 31
0.0
  0
LINE
  5
90
330
1F
100
AcDbEntity
  8
0
  6
Continuous
 62
     7
370
    25
100
AcDbLine
 10
275.9944086538
 20
600.071236337
 30
0.0
 11
-4.0055913462
 21
600.071236337
 31
0.0
  0
LINE
  5
91
330
1F
100
AcDbEntity
  8
0
  6
Continuous
 62
     7
370
    25
100
AcDbLine
 10
-190.1058340186
 20
278.27271875
 30
0.0
 11
-225.1058340186
 21
278.27271875
 31
0.0
  0
LINE
  5
92
330
1F
100
AcDbEntity
  8
0
  6
Continuous
 62
     7
370
    25
100
AcDbLine
 10
-225.1058340186
 20
-41.72728125
 30
0.0
 11
-190.1058340186
 21
-41.72728125
 31
0.0
  0
LINE
  5
93
330
1F
100
AcDbEntity
  8
0
  6
Continuous
 62
     7
370
    25
100
AcDbLine
 10
-225.1058340186
 20
262.27271875
 30
0.0
 11
-248.1058340186
 21
258.27271875
 31
0.0
  0
LINE
  5
94
330
1F
100
AcDbEntity
  8
0
  6
Continuous
 62
     7
370
    25
100
AcDbLine
 10
-248.1058340186
 20
-21.72728125
 30
0.0
 11
-225.1058340186
 21
-25.72728125
 31
0.0
  0
LINE
  5
95
330
1F
100
AcDbEntity
  8
0
  6
Continuous
 62
     7
370
    25
100
AcDbLine
 10
-248.1058340186
 20
258.27271875
 30
0.0
 11
-403.1058340186
 21
258.27271875
 31
0.0
  0
LINE
  5
96
330
1F
100
AcDbEntity
  8
0
  6
Continuous
 62
     7
370
    25
100
AcDbLine
 10
-403.1058340186
 20
-21.72728125
 30
0.0
 11
-248.1058340186
 21
-21.72728125
 31
0.0
  0
LINE
  5
97
330
1F
100
AcDbEntity
  8
0
  6
Continuous
 62
     7
370
    25
100
AcDbLine
 10
-190.1058340186
 20
278.27271875
 30
0.0
 11
-190.1058340186
 21
-41.72728125
 31
0.0
  0
LINE
  5
98
330
1F
100
AcDbEntity
  8
0
  6
Continuous
 62
     7
370
    25
100
AcDbLine
 10
-225.1058340186
 20
278.27271875
 30
0.0
 11
-225.1058340186
 21
-41.72728125
 31
0.0
  0
LINE
  5
99
330
1F
100
AcDbEntity
  8
0
  6
Continuous
 62
     7
370
    25
100
AcDbLine
 10
-248.1058340186
 20
258.27271875
 30
0.0
 11
-248.1058340186
 21
-21.72728125
 31
0.0
  0
LINE
  5
9A
330
1F
100
AcDbEntity
  8
0
  6
Continuous
 62
     7
370
    25
100
AcDbLine
 10
-403.1058340186
 20
258.27271875
 30
0.0
 11
-403.1058340186
 21
-21.72728125
 31
0.0
  0
LINE
  5
9B
330
1F
100
AcDbEntity
  8
0
  6
Continuous
 62
     7
370
    25
100
AcDbLine
 10
-24.0055913462
 20
-172.217906954
 30
0.0
 11
-24.0055913462
 21
-207.217906954
 31
0.0
  0
LINE
  5
9C
330
1F
100
AcDbEntity
  8
0
  6
Continuous
 62
     7
370
    25
100
AcDbLine
 10
295.9944086538
 20
-207.217906954
 30
0.0
 11
295.9944086538
 21
-172.217906954
 31
0.0
  0
LINE
  5
9D
330
1F
100
AcDbEntity
  8
0
  6
Continuous
 62
     7
370
    25
100
AcDbLine
 10
-8.0055913462
 20
-207.217906954
 30
0.0
 11
-4.0055913462
 21
-230.217906954
 31
0.0
  0
LINE
  5
9E
330
1F
100
AcDbEntity
  8
0
  6
Continuous
 62
     7
370
    25
100
AcDbLine
 10
275.9944086538
 20
-230.217906954
 30
0.0
 11
279.9944086538
 21
-207.217906954
 31
0.0
  0
LINE
  5
9F
330
1F
100
AcDbEntity
  8
0
  6
Continuous
 62
     7
370
    25
100
AcDbLine
 10
-4.0055913462
 20
-230.217906954
 30
0.0
 11
-4.0055913462
 21
-385.217906954
 31
0.0
  0
LINE
  5
A0
330
1F
100
AcDbEntity
  8
0
  6
Continuous
 62
     7
370
    25
100
AcDbLine
 10
275.9944086538
 20
-385.217906954
 30
0.0
 11
275.9944086538
 21
-230.217906954
 31
0.0
  0
LINE
  5
A1
330
1F
100
AcDbEntity
  8
0
  6
Continuous
 62
     7
370
    25
100
AcDbLine
 10
-24.0055913462
 20
-172.217906954
 30
0.0
 11
295.9944086538
 21
-172.217906954
 31
0.0
  0
LINE
  5
A2
330
1F
100
AcDbEntity
  8
0
  6
Continuous
 62
     7
370
    25
100
AcDbLine
 10
-24.0055913462
 20
-207.217906954
 30
0.0
 11
295.9944086538
 21
-207.217906954
 31
0.0
  0
LINE
  5
A3
330
1F
100
AcDbEntity
  8
0
  6
Continuous
 62
     7
370
    25
100
AcDbLine
 10
-4.0055913462
 20
-230.217906954
 30
0.0
 11
275.9944086538
 21
-230.217906954
 31
0.0
  0
LINE
  5
A4
330
1F
100
AcDbEntity
  8
0
  6
Continuous
 62
     7
370
    25
100
AcDbLine
 10
-4.0055913462
 20
-385.217906954
 30
0.0
 11
275.9944086538
 21
-385.217906954
 31
0.0
  0
LINE
  5
A5
330
1F
100
AcDbEntity
  8
0
  6
Continuous
 62
     7
370
    25
100
AcDbLine
 10
516.6525790175
 20
-41.72728125
 30
0.0
 11
551.6525790175
 21
-41.72728125
 31
0.0
  0
LINE
  5
A6
330
1F
100
AcDbEntity
  8
0
  6
Continuous
 62
     7
370
    25
100
AcDbLine
 10
551.6525790175
 20
278.27271875
 30
0.0
 11
516.6525790175
 21
278.27271875
 31
0.0
  0
LINE
  5
A7
330
1F
100
AcDbEntity
  8
0
  6
Continuous
 62
     7
370
    25
100
AcDbLine
 10
551.6525790175
 20
-25.72728125
 30
0.0
 11
574.6525790175
 21
-21.72728125
 31
0.0
  0
LINE
  5
A8
330
1F
100
AcDbEntity
  8
0
  6
Continuous
 62
     7
370
    25
100
AcDbLine
 10
574.6525790175
 20
258.27271875
 30
0.0
 11
551.6525790175
 21
262.27271875
 31
0.0
  0
LINE
  5
A9
330
1F
100
AcDbEntity
  8
0
  6
Continuous
 62
     7
370
    25
100
AcDbLine
 10
574.6525790175
 20
-21.72728125
 30
0.0
 11
729.6525790175
 21
-21.72728125
 31
0.0
  0
LINE
  5
AA
330
1F
100
AcDbEntity
  8
0
  6
Continuous
 62
     7
370
    25
100
AcDbLine
 10
729.6525790175
 20
258.27271875
 30
0.0
 11
574.6525790175
 21
258.27271875
 31
0.0
  0
LINE
  5
AB
330
1F
100
AcDbEntity
  8
0
  6
Continuous
 62
     7
370
    25
100
AcDbLine
 10
516.6525790175
 20
118.27271875
 30
0.0
 11
516.6525790175
 21
278.27271875
 31
0.0
  0
LINE
  5
AC
330
1F
100
AcDbEntity
  8
0
  6
Continuous
 62
     7
370
    25
100
AcDbLine
 10
516.6525790175
 20
-41.72728125
 30
0.0
 11
516.6525790175
 21
118.27271875
 31
0.0
  0
LINE
  5
AD
330
1F
100
AcDbEntity
  8
0
  6
Continuous
 62
     7
370
    25
100
AcDbLine
 10
551.6525790175
 20
118.27271875
 30
0.0
 11
551.6525790175
 21
278.27271875
 31
0.0
  0
LINE
  5
AE
330
1F
100
AcDbEntity
  8
0
  6
Continuous
 62
     7
370
    25
100
AcDbLine
 10
551.6525790175
 20
-41.72728125
 30
0.0
 11
551.6525790175
 21
118.27271875
 31
0.0
  0
LINE
  5
AF
330
1F
100
AcDbEntity
  8
0
  6
Continuous
 62
     7
370
    25
100
AcDbLine
 10
574.6525790175
 20
118.27271875
 30
0.0
 11
574.6525790175
 21
258.27271875
 31
0.0
  0
LINE
  5
B0
330
1F
100
AcDbEntity
  8
0
  6
Continuous
 62
     7
370
    25
100
AcDbLine
 10
574.6525790175
 20
-21.72728125
 30
0.0
 11
574.6525790175
 21
118.27271875
 31
0.0
  0
LINE
  5
B1
330
1F
100
AcDbEntity
  8
0
  6
Continuous
 62
     7
370
    25
100
AcDbLine
 10
729.6525790175
 20
118.27271875
 30
0.0
 11
729.6525790175
 21
258.27271875
 31
0.0
  0
LINE
  5
B2
330
1F
100
AcDbEntity
  8
0
  6
Continuous
 62
     7
370
    25
100
AcDbLine
 10
729.6525790175
 20
-21.72728125
 30
0.0
 11
729.6525790175
 21
118.27271875
 31
0.0
  0
LINE
  5
B3
330
1F
100
AcDbEntity
  8
0
  6
Continuous
 62
     7
370
    25
100
AcDbLine
 10
665.7630620514
 20
-177.6102922875
 30
0.0
 11
556.1615109675
 21
-114.3386636213
 31
0.0
  0
LINE
  5
B4
330
1F
100
AcDbEntity
  8
0
  6
Continuous
 62
     7
370
    25
100
AcDbLine
 10
416.1728883985
 20
-356.8323450879
 30
0.0
 11
525.7744394824
 21
-420.1039737541
 31
0.0
  0
LINE
  5
B5
330
1F
100
AcDbEntity
  8
0
  6
Continuous
 62
     7
370
    25
100
AcDbLine
 10
716.7744426866
 20
-183.9651502828
 30
0.0
 11
692.0257053451
 21
-169.6780083259
 31
0.0
  0
LINE
  5
B6
330
1F
100
AcDbEntity
  8
0
  6
Continuous
 62
     7
370
    25
100
AcDbLine
 10
532.0387081233
 20
-446.8136442877
 30
0.0
 11
556.7874454648
 21
-461.1007862446
 31
0.0
  0
LINE
  5
B7
330
1F
100
AcDbEntity
  8
0
  6
Continuous
 62
     7
370
    25
100
AcDbLine
 10
674.6241675691
 20
-179.3692761241
 30
0.0
 11
661.4418320085
 21
-175.1156992827
 31
0.0
  0
LINE
  5
B8
330
1F
100
AcDbEntity
  8
0
  6
Continuous
 62
     7
370
    25
100
AcDbLine
 10
521.4532094395
 20
-417.6093807493
 30
0.0
 11
531.7289544813
 21
-426.8978655887
 31
0.0
  0
LWPOLYLINE
  5
B9
330
1F
100
AcDbEntity
  8
0
  6
Continuous
 62
     7
370
    25
100
AcDbPolyline
 90
      128
 70
   128
 43
0.0
 10
387.1722503169
 20
-292.7340721822
 10
387.2933789318
 20
-287.0108088349
 10
387.6564683545
 20
-281.1616991501
 10
388.2606300444
 20
-275.2010568794
 10
389.1043855165
 20
-269.1434687133
 10
390.1856699599
 20
-263.003758585
 10
391.5018372902
 20
-256.796951394
 10
393.0496666256
 20
-250.5382362378
 10
394.8253701681
 20
-244.242929241
 10
396.8246024738
 20
-237.9264360747
 10
399.0424710861
 20
-231.6042142562
 10
401.473548509
 20
-225.2917353218
 10
404.1118854884
 20
-219.0044469651
 10
406.9510255719
 20
-212.7577352344
 10
409.9840209078
 20
-206.56688688
 10
413.2034492482
 20
-200.4470519453
 10
416.6014321126
 20
-194.4132066917
 10
420.1696540676
 20
-188.4801169499
 10
423.8993830759
 20
-182.6623019846
 10
427.7814918658
 20
-176.9739989639
 10
431.8064802664
 20
-171.4291281185
 10
435.9644984568
 20
-166.0412586765
 10
440.2453710697
 20
-160.8235756574
 10
444.6386220923
 20
-155.7888476057
 10
449.1335005034
 20
-150.9493953447
 10
453.7190065821
 20
-146.3170618251
 10
458.3839188267
 20
-141.9031831432
 10
463.1168214152
 20
-137.7185607998
 10
467.906132142
 20
-133.773435267
 10
472.7401307611
 20
-130.077460928
 10
477.6069876678
 20
-126.6396824514
 10
482.4947928477
 20
-123.4685126573
 10
487.3915850226
 20
-120.5717119294
 10
492.2853809214
 20
-117.9563692246
 10
497.1642046054
 20
-115.6288847248
 10
502.0161167757
 20
-113.5949541745
 10
506.8292439899
 20
-111.8595549427
 10
511.5918077194
 20
-110.426933842
 10
516.2921531726
 20
-109.3005967363
 10
520.9187778165
 20
-108.4832999614
 10
525.4603595254
 20
-107.9770435793
 10
529.9057842877
 20
-107.7830664842
 10
534.2441734041
 20
-107.9018433707
 10
538.4649101095
 20
-108.3330835717
 10
542.5576655539
 20
-109.0757317703
 10
546.5124240789
 20
-110.1279705818
 10
550.3195077276
 20
-111.4872250015
 10
553.9695999284
 20
-113.1501687062
 10
557.4537682941
 20
-115.1127321938
 10
560.7634864809
 20
-117.3701127428
 10
563.8906550536
 20
-119.9167861645
 10
566.8276213067
 20
-122.7465203225
 10
569.5671979918
 20
-125.8523903829
 10
572.1026809056
 20
-129.2267957614
 10
574.4278652965
 20
-132.8614787225
 10
576.5370610486
 20
-136.7475445879
 10
578.4251066066
 20
-140.8754835033
 10
580.0873816065
 20
-145.2351937104
 10
581.519818183
 20
-149.8160062679
 10
582.7189109235
 20
-154.6067111596
 10
583.6817254474
 20
-159.595584728
 10
584.4059055861
 20
-164.7704183635
 10
584.8896791494
 20
-170.118548381
 10
585.1318622624
 20
-175.6268870102
 10
585.1318622624
 20
-181.2819544234
 10
584.8896791494
 20
-187.069911723
 10
584.4059055861
 20
-192.9765948075
 10
583.6817254474
 20
-198.9875490338
 10
582.7189109235
 20
-205.0880645895
 10
581.519818183
 20
-211.2632124908
 10
580.0873816065
 20
-217.4978811161
 10
578.4251066066
 20
-223.7768131863
 10
576.5370610486
 20
-230.0846431027
 10
574.4278652965
 20
-236.4059345483
 10
572.1026809056
 20
-242.7252182638
 10
569.5671979918
 20
-249.0270299029
 10
566.8276213067
 20
-255.2959478766
 10
563.8906550536
 20
-261.5166310921
 10
560.7634864809
 20
-267.6738564951
 10
557.4537682941
 20
-273.7525563233
 10
553.9695999284
 20
-279.7378549797
 10
550.3195077276
 20
-285.6151054354
 10
546.5124240789
 20
-291.3699250738
 10
542.5576655539
 20
-296.9882308867
 10
538.4649101095
 20
-302.4562739385
 10
534.2441734041
 20
-307.7606730115
 10
529.9057842877
 20
-312.8884473523
 10
525.4603595254
 20
-317.8270484378
 10
520.9187778165
 20
-322.5643906836
 10
516.2921531726
 20
-327.0888810194
 10
511.5918077194
 20
-331.3894472591
 10
506.8292439899
 20
-335.4555651965
 10
502.0161167757
 20
-339.2772843596
 10
497.1642046054
 20
-342.8452523614
 10
492.2853809214
 20
-346.150737786
 10
487.3915850226
 20
-349.1856515569
 10
482.4947928477
 20
-351.9425667314
 10
477.6069876678
 20
-354.4147366762
 10
472.7401307611
 20
-356.596111577
 10
467.906132142
 20
-358.4813532441
 10
463.1168214152
 20
-360.0658481751
 10
458.3839188267
 20
-361.3457188454
 10
453.7190065821
 20
-362.3178331971
 10
449.1335005034
 20
-362.9798123033
 10
444.6386220923
 20
-363.3300361904
 10
440.2453710697
 20
-363.3676478017
 10
435.9644984568
 20
-363.0925550953
 10
431.8064802664
 20
-362.5054312692
 10
427.7814918658
 20
-361.6077131138
 10
423.8993830759
 20
-360.4015974959
 10
420.1696540675
 20
-358.8900359824
 10
416.6014321126
 20
-357.0767276177
 10
413.2034492482
 20
-354.9661098712
 10
409.9840209078
 20
-352.5633477782
 10
406.9510255719
 20
-349.8743213002
 10
404.1118854884
 20
-346.9056109356
 10
401.473548509
 20
-343.6644816162
 10
399.0424710861
 20
-340.1588649284
 10
396.8246024738
 20
-336.3973397037
 10
394.8253701681
 20
-332.3891110248
 10
393.0496666256
 20
-328.1439876989
 10
391.5018372902
 20
-323.672358254
 10
390.1856699599
 20
-318.9851655168
 10
389.1043855165
 20
-314.0938798334
 10
388.2606300444
 20
-309.0104709993
 10
387.6564683545
 20
-303.747378968
 10
387.2933789318
 20
-298.3174834075
 10
387.1722503169
 20
-292.7340721822
  0
LWPOLYLINE
  5
BA
330
1F
100
AcDbEntity
  8
0
  6
Continuous
 62
     7
370
    25
100
AcDbPolyline
 90
      120
 70
   128
 43
0.0
 10
398.9102228846
 20
-285.957884854
 10
399.0318233068
 20
-280.569982485
 10
399.3962856513
 20
-275.0567003071
 10
400.0025940962
 20
-269.4334048266
 10
400.8490587511
 20
-263.7157691767
 10
401.9333203672
 20
-257.9197294334
 10
403.2523569129
 20
-252.061440199
 10
404.8024919967
 20
-246.1572295763
 10
406.5794051141
 20
-240.2235536593
 10
408.5781436897
 20
-234.276950667
 10
410.7931368804
 20
-228.3339948486
 10
413.218211103
 20
-222.4112502877
 10
415.8466072407
 20
-216.5252247359
 10
418.670999482
 20
-210.6923236019
 10
421.6835157392
 20
-204.9288042274
 10
424.8757595892
 20
-199.2507305747
 10
428.2388336757
 20
-193.6739284534
 10
431.7633645081
 20
-188.2139414113
 10
435.4395285869
 20
-182.8859874115
 10
439.2570797834
 20
-177.7049164175
 10
443.2053778977
 20
-172.6851690033
 10
447.2734183148
 20
-167.8407361054
 10
451.4498626765
 20
-163.185120027
 10
455.7230704832
 20
-158.7312968053
 10
460.0811315383
 20
-154.4916800444
 10
464.5118991441
 20
-150.4780863166
 10
469.0030239565
 20
-146.7017022274
 10
473.5419884051
 20
-143.1730532367
 10
478.1161415821
 20
-139.9019743221
 10
482.7127345019
 20
-136.8975825672
 10
487.3189556358
 20
-134.1682517506
 10
491.9219666193
 20
-131.721589007
 10
496.5089380352
 20
-129.5644136241
 10
501.0670851714
 20
-127.7027380368
 10
505.5837036544
 20
-126.1417510686
 10
510.0462048583
 20
-124.8858034704
 10
514.4421509919
 20
-123.9383957933
 10
518.7592897649
 20
-123.3021686325
 10
522.9855885373
 20
-122.9788952671
 10
527.1092678563
 20
-122.969476718
 10
531.118834288
 20
-123.2739392364
 10
535.0031124517
 20
-123.8914342306
 10
538.7512761675
 20
-124.8202406314
 10
542.3528786307
 20
-126.0577696887
 10
545.7978815295
 20
-127.600572187
 10
549.0766830228
 20
-129.4443480592
 10
552.1801445027
 20
-131.5839583711
 10
555.0996160656
 20
-134.0134396451
 10
557.8269606205
 20
-136.726020481
 10
560.354576569
 20
-139.7141404297
 10
562.675418992
 20
-142.9694710648
 10
564.7830192856
 20
-146.482939196
 10
566.6715031897
 20
-150.2447521575
 10
568.3356071609
 20
-154.2444251018
 10
569.770693043
 20
-158.470810223
 10
570.9727609942
 20
-162.9121278279
 10
571.9384606356
 20
-167.5559991676
 10
572.665100389
 20
-172.3894809398
 10
573.1506549792
 20
-177.399101364
 10
573.3937710783
 20
-182.5708977294
 10
573.3937710783
 20
-187.890455312
 10
573.1506549792
 20
-193.3429475507
 10
572.665100389
 20
-198.9131773717
 10
571.9384606356
 20
-204.5856195455
 10
570.9727609942
 20
-210.3444639583
 10
569.770693043
 20
-216.1736596778
 10
568.3356071609
 20
-222.0569596901
 10
566.6715031897
 20
-227.9779661828
 10
564.7830192856
 20
-233.9201762488
 10
562.675418992
 20
-239.867027883
 10
560.354576569
 20
-245.8019461432
 10
557.8269606205
 20
-251.7083893477
 10
555.0996160656
 20
-257.56989518
 10
552.1801445027
 20
-263.370126572
 10
549.0766830228
 20
-269.0929172385
 10
545.7978815295
 20
-274.7223167355
 10
542.3528786307
 20
-280.242634917
 10
538.7512761674
 20
-285.638485666
 10
535.0031124517
 20
-290.8948297788
 10
531.118834288
 20
-295.9970168815
 10
527.1092678563
 20
-300.9308262635
 10
522.9855885373
 20
-305.6825065133
 10
518.7592897649
 20
-310.2388138456
 10
514.4421509919
 20
-314.5870490149
 10
510.0462048583
 20
-318.7150927096
 10
505.5837036544
 20
-322.6114393318
 10
501.0670851714
 20
-326.2652290645
 10
496.5089380352
 20
-329.6662781403
 10
491.9219666193
 20
-332.8051072256
 10
487.3189556358
 20
-335.6729678407
 10
482.7127345019
 20
-338.2618667437
 10
478.1161415821
 20
-340.5645882089
 10
473.5419884051
 20
-342.5747141388
 10
469.0030239565
 20
-344.2866419517
 10
464.5118991441
 20
-345.6956001978
 10
460.0811315383
 20
-346.7976618578
 10
455.7230704832
 20
-347.5897552882
 10
451.4498626765
 20
-348.0696727824
 10
447.2734183148
 20
-348.2360767245
 10
443.2053778977
 20
-348.0885033167
 10
439.2570797834
 20
-347.6273638726
 10
435.4395285869
 20
-346.8539436705
 10
431.7633645081
 20
-345.7703983713
 10
428.2388336757
 20
-344.3797480101
 10
424.8757595892
 20
-342.6858685788
 10
421.6835157392
 20
-340.6934812232
 10
418.670999482
 20
-338.4081390842
 10
415.8466072407
 20
-335.8362118202
 10
413.218211103
 20
-332.9848678539
 10
410.7931368804
 20
-329.8620543923
 10
408.5781436897
 20
-326.4764752766
 10
406.5794051141
 20
-322.837566723
 10
404.8024919967
 20
-318.9554710223
 10
403.2523569129
 20
-314.8410082715
 10
401.9333203672
 20
-310.5056462163
 10
400.8490587511
 20
-305.9614682883
 10
400.0025940962
 20
-301.2211399263
 10
399.3962856513
 20
-296.2978732758
 10
399.0318233068
 20
-291.205390364
 10
398.9102228846
 20
-285.957884854
  0
LWPOLYLINE
  5
BB
330
1F
100
AcDbEntity
  8
0
  6
Continuous
 62
     7
370
    25
100
AcDbPolyline
 90
       66
 70
   128
 43
0.0
 10
665.7630620514
 20
-177.6102922875
 10
667.0553193781
 20
-178.3843608601
 10
670.3650375648
 20
-180.641741409
 10
673.4922061375
 20
-183.1884148308
 10
676.4291723907
 20
-186.0181489887
 10
679.1687490757
 20
-189.1240190492
 10
681.7042319895
 20
-192.4984244277
 10
684.0294163804
 20
-196.1331073887
 10
686.1386121325
 20
-200.0191732542
 10
688.0266576905
 20
-204.1471121696
 10
689.6889326904
 20
-208.5068223767
 10
691.1213692669
 20
-213.0876349341
 10
692.3204620075
 20
-217.8783398259
 10
693.2832765313
 20
-222.8672133943
 10
694.00745667
 20
-228.0420470298
 10
694.4912302333
 20
-233.3901770473
 10
694.7334133463
 20
-238.8985156765
 10
694.7334133463
 20
-244.5535830896
 10
694.4912302333
 20
-250.3415403892
 10
694.00745667
 20
-256.2482234738
 10
693.2832765313
 20
-262.2591777001
 10
692.3204620075
 20
-268.3596932558
 10
691.1213692669
 20
-274.5348411571
 10
689.6889326904
 20
-280.7695097823
 10
688.0266576905
 20
-287.0484418526
 10
686.1386121325
 20
-293.356271769
 10
684.0294163804
 20
-299.6775632146
 10
681.7042319895
 20
-305.99684693
 10
679.1687490757
 20
-312.2986585692
 10
676.4291723907
 20
-318.5675765428
 10
673.4922061375
 20
-324.7882597583
 10
670.3650375648
 20
-330.9454851614
 10
667.0553193781
 20
-337.0241849896
 10
663.5711510124
 20
-343.009483646
 10
659.9210588115
 20
-348.8867341017
 10
656.1139751628
 20
-354.64155374
 10
652.1592166378
 20
-360.259859553
 10
648.0664611934
 20
-365.7279026048
 10
643.845724488
 20
-371.0323016778
 10
639.5073353716
 20
-376.1600760186
 10
635.0619106093
 20
-381.0986771041
 10
630.5203289004
 20
-385.8360193499
 10
625.8937042565
 20
-390.3605096856
 10
621.1933588033
 20
-394.6610759253
 10
616.4307950739
 20
-398.7271938627
 10
611.6176678596
 20
-402.5489130259
 10
606.7657556894
 20
-406.1168810276
 10
601.8869320053
 20
-409.4223664523
 10
596.9931361065
 20
-412.4572802231
 10
592.0963439316
 20
-415.2141953977
 10
587.2085387517
 20
-417.6863653424
 10
582.341681845
 20
-419.8677402433
 10
577.5076832259
 20
-421.7529819104
 10
572.7183724991
 20
-423.3374768414
 10
567.9854699106
 20
-424.6173475117
 10
563.320557666
 20
-425.5894618633
 10
558.7350515873
 20
-426.2514409696
 10
554.2401731763
 20
-426.6016648566
 10
549.8469221536
 20
-426.6392764679
 10
545.5660495408
 20
-426.3641837615
 10
541.4080313504
 20
-425.7770599355
 10
537.3830429497
 20
-424.8793417801
 10
533.5009341598
 20
-423.6732261621
 10
529.7712051515
 20
-422.1616646486
 10
526.2029831966
 20
-420.3483562839
 10
525.7744394824
 20
-420.1039737541
  0
LWPOLYLINE
  5
BC
330
1F
100
AcDbEntity
  8
0
  6
Continuous
 62
     7
370
    25
100
AcDbPolyline
 90
       70
 70
   128
 43
0.0
 10
716.7744426866
 20
-183.9651502828
 10
716.7809440757
 20
-183.9689040648
 10
720.3902587516
 20
-186.2503402331
 10
723.8211469364
 20
-188.8226103976
 10
727.0662869419
 20
-191.6802252041
 10
730.1187534758
 20
-194.8170863586
 10
732.9720324206
 20
-198.2264996415
 10
735.6200347353
 20
-201.9011891928
 10
738.0571094495
 20
-205.8333130399
 10
740.278055723
 20
-210.0144798324
 10
742.2781339445
 20
-214.4357667496
 10
744.0530758462
 20
-219.0877385424
 10
745.5990936128
 20
-223.9604676686
 10
746.9128879643
 20
-229.0435554786
 10
747.9916551974
 20
-234.326154407
 10
748.8330931685
 20
-239.7969911213
 10
749.4354062065
 20
-245.4443905804
 10
749.7973089451
 20
-251.2563009491
 10
749.9180290656
 20
-257.2203193179
 10
749.7973089451
 20
-263.3237181709
 10
749.4354062065
 20
-269.5534725476
 10
748.8330931685
 20
-275.896287838
 10
747.9916551974
 20
-282.3386281547
 10
746.9128879643
 20
-288.8667452188
 10
745.5990936128
 20
-295.4667076995
 10
744.0530758462
 20
-302.1244309443
 10
742.2781339445
 20
-308.8257070361
 10
740.278055723
 20
-315.5562351143
 10
738.0571094495
 20
-322.3016518925
 10
735.6200347353
 20
-329.0475623116
 10
732.9720324206
 20
-335.7795702586
 10
730.1187534758
 20
-342.4833092895
 10
727.0662869419
 20
-349.1444732871
 10
723.8211469364
 20
-355.748846992
 10
720.3902587516
 20
-362.2823363377
 10
716.7809440757
 20
-368.7309985288
 10
713.0009053682
 20
-375.0810717952
 10
709.0582094223
 20
-381.3190047604
 10
704.9612701496
 20
-387.4314853612
 10
700.7188306251
 20
-393.405469256
 10
696.3399444286
 20
-399.2282076619
 10
691.8339563238
 20
-404.887274562
 10
687.2104823164
 20
-410.3705932221
 10
682.4793891331
 20
-415.666461964
 10
677.650773165
 20
-420.7635791368
 10
672.734938922
 20
-425.6510672357
 10
667.7423770421
 20
-430.3184961147
 10
662.6837419039
 20
-434.7559052453
 10
657.5698288898
 20
-438.953824973
 10
652.4115513478
 20
-442.9032967254
 10
647.2199173022
 20
-446.5958921307
 10
642.0060059616
 20
-450.0237310044
 10
636.7809440757
 20
-453.1794981654
 10
631.5558821898
 20
-456.0564590476
 10
626.3419708492
 20
-458.6484740716
 10
621.1503368036
 20
-460.9500117466
 10
615.9920592617
 20
-462.9561604752
 10
610.8781462475
 20
-464.662639035
 10
605.8195111094
 20
-466.0658057147
 10
600.8269492294
 20
-467.162666086
 10
595.9111149864
 20
-467.9508793934
 10
591.0824990183
 20
-468.42876355
 10
586.351405835
 20
-468.5952987271
 10
581.7279318277
 20
-468.4501295302
 10
577.2219437229
 20
-467.9935657575
 10
572.8430575263
 20
-467.2265817393
 10
568.6006180018
 20
-466.1508142581
 10
564.5036787292
 20
-464.7685590558
 10
560.5609827832
 20
-463.0827659348
 10
556.7874454648
 20
-461.1007862446
  0
LWPOLYLINE
  5
BD
330
1F
100
AcDbEntity
  8
0
  6
Continuous
 62
     7
370
    25
100
AcDbPolyline
 90
       91
 70
   128
 43
0.0
 10
643.2935373409
 20
-164.6389117758
 10
647.9862015805
 20
-163.6161284845
 10
652.9020358235
 20
-162.8279151771
 10
657.7306517916
 20
-162.3500310204
 10
662.4617449749
 20
-162.1834958433
 10
667.0852189822
 20
-162.3286650403
 10
671.591207087
 20
-162.7852288129
 10
675.9700932836
 20
-163.5522128312
 10
680.2125328081
 20
-164.6279803124
 10
684.3094720807
 20
-166.0102355147
 10
688.2521680267
 20
-167.6960286357
 10
692.0322067342
 20
-169.6817621079
 10
695.64152141
 20
-171.9631982762
 10
699.0724095949
 20
-174.5354684407
 10
702.3175496004
 20
-177.3930832472
 10
705.3700161342
 20
-180.5299444017
 10
708.2232950791
 20
-183.9393576846
 10
710.8712973938
 20
-187.6140472359
 10
713.308372108
 20
-191.546171083
 10
715.5293183815
 20
-195.7273378755
 10
717.529396603
 20
-200.1486247927
 10
719.3043385047
 20
-204.8005965855
 10
720.8503562712
 20
-209.6733257117
 10
722.1641506227
 20
-214.7564135217
 10
723.2429178559
 20
-220.0390124501
 10
724.0843558269
 20
-225.5098491644
 10
724.686668865
 20
-231.1572486235
 10
725.0485716036
 20
-236.9691589922
 10
725.169291724
 20
-242.933177361
 10
725.0485716036
 20
-249.036576214
 10
724.686668865
 20
-255.2663305907
 10
724.0843558269
 20
-261.6091458811
 10
723.2429178559
 20
-268.0514861978
 10
722.1641506227
 20
-274.5796032619
 10
720.8503562712
 20
-281.1795657426
 10
719.3043385047
 20
-287.8372889874
 10
717.529396603
 20
-294.5385650792
 10
715.5293183815
 20
-301.2690931574
 10
713.308372108
 20
-308.0145099356
 10
710.8712973938
 20
-314.7604203547
 10
708.2232950791
 20
-321.4924283017
 10
705.3700161342
 20
-328.1961673326
 10
702.3175496004
 20
-334.8573313302
 10
699.0724095949
 20
-341.4617050351
 10
695.64152141
 20
-347.9951943809
 10
692.0322067342
 20
-354.4438565719
 10
688.2521680267
 20
-360.7939298383
 10
684.3094720807
 20
-367.0318628035
 10
680.2125328081
 20
-373.1443434043
 10
675.9700932836
 20
-379.1183272991
 10
671.591207087
 20
-384.941065705
 10
667.0852189822
 20
-390.6001326051
 10
662.4617449749
 20
-396.0834512652
 10
657.7306517916
 20
-401.3793200071
 10
652.9020358235
 20
-406.4764371799
 10
647.9862015805
 20
-411.3639252788
 10
642.9936397005
 20
-416.0313541578
 10
637.9350045624
 20
-420.4687632884
 10
632.8210915482
 20
-424.6666830161
 10
627.6628140063
 20
-428.6161547685
 10
622.4711799607
 20
-432.3087501738
 10
617.2572686201
 20
-435.7365890475
 10
612.0322067342
 20
-438.8923562085
 10
606.8071448483
 20
-441.7693170907
 10
601.5932335077
 20
-444.3613321147
 10
596.4015994621
 20
-446.6628697897
 10
591.2433219201
 20
-448.6690185183
 10
586.129408906
 20
-450.3754970781
 10
581.0707737678
 20
-451.7786637578
 10
576.0782118879
 20
-452.8755241291
 10
571.1623776449
 20
-453.6637374365
 10
566.3337616768
 20
-454.1416215932
 10
561.6026684935
 20
-454.3081567702
 10
556.9791944861
 20
-454.1629875733
 10
552.4732063813
 20
-453.7064238006
 10
548.0943201848
 20
-452.9394397824
 10
543.8518806603
 20
-451.8636723012
 10
539.7549413876
 20
-450.4814170989
 10
535.8122454417
 20
-448.7956239779
 10
532.0322067342
 20
-446.8098905056
 10
528.4228920583
 20
-444.5284543374
 10
524.9920038735
 20
-441.9561841729
 10
521.746863868
 20
-439.0985693664
 10
518.6943973341
 20
-435.9617082118
 10
515.8411183893
 20
-432.552294929
 10
513.1931160746
 20
-428.8776053777
 10
510.7560413604
 20
-424.9454815305
 10
508.5350950869
 20
-420.7643147381
 10
506.5350168654
 20
-416.3430278209
 10
504.7600749637
 20
-411.691056028
 10
503.3049147719
 20
-407.1325932423
  0
LWPOLYLINE
  5
BE
330
1F
100
AcDbEntity
  8
0
  6
Continuous
 62
     7
370
    25
100
AcDbPolyline
 90
       72
 70
   128
 43
0.0
 10
674.6241675691
 20
-179.3692761241
 10
675.2406962659
 20
-179.5726318879
 10
679.0524228203
 20
-181.0352426379
 10
682.7051848267
 20
-182.7995828379
 10
686.1903183372
 20
-184.8614676678
 10
689.499557
 20
-187.2160065648
 10
692.6250516667
 20
-189.8576148226
 10
695.5593890093
 20
-192.7800268383
 10
698.2956091037
 20
-195.9763109735
 10
700.8272219382
 20
-199.4388859954
 10
703.1482228069
 20
-203.1595390585
 10
705.2531065521
 20
-207.1294451849
 10
707.1368806222
 20
-211.3391881957
 10
708.7950769131
 20
-215.7787830458
 10
710.2237623665
 20
-220.4376995066
 10
711.4195482982
 20
-225.3048871429
 10
712.3795984363
 20
-230.3688015235
 10
713.1016356477
 20
-235.6174316029
 10
713.5839473402
 20
-241.0383282105
 10
713.8253895234
 20
-246.6186335783
 10
713.8253895234
 20
-252.3451118386
 10
713.5839473402
 20
-258.2041804176
 10
713.1016356477
 20
-264.181942252
 10
712.3795984363
 20
-270.2642187511
 10
711.4195482982
 20
-276.4365834271
 10
710.2237623664
 20
-282.6843961128
 10
708.7950769131
 20
-288.9928376869
 10
707.1368806222
 20
-295.3469452229
 10
705.2531065521
 20
-301.7316474798
 10
703.1482228069
 20
-308.1318006491
 10
700.8272219382
 20
-314.5322242747
 10
698.2956091037
 20
-320.9177372588
 10
695.5593890093
 20
-327.2731938702
 10
692.6250516667
 20
-333.5835196678
 10
689.499557
 20
-339.8337472562
 10
686.1903183372
 20
-346.009051786
 10
682.7051848267
 20
-352.0947861171
 10
679.0524228203
 20
-358.07651556
 10
675.2406962659
 20
-363.9400521134
 10
671.2790461576
 20
-369.6714881163
 10
667.1768690919
 20
-375.2572292359
 10
662.9438949796
 20
-380.6840267112
 10
658.5901639676
 20
-385.9390087783
 10
654.1260026248
 20
-391.0097112002
 10
649.5619994488
 20
-395.884106831
 10
644.9089797508
 20
-400.5506341429
 10
640.1779799794
 20
-404.9982246486
 10
635.3802215436
 20
-409.2163291547
 10
630.5270841961
 20
-413.1949427835
 10
625.6300790426
 20
-416.924628703
 10
620.7008212383
 20
-420.3965405101
 10
615.7510024382
 20
-423.6024432138
 10
610.7923630655
 20
-426.534732767
 10
605.836664465
 20
-429.1864541028
 10
600.8956610063
 20
-431.5513176312
 10
595.9810722036
 20
-433.6237141572
 10
591.1045549187
 20
-435.3987281851
 10
586.2776757118
 20
-436.8721495779
 10
581.5118834071
 20
-438.0404835427
 10
576.8184819373
 20
-438.9009589204
 10
572.2086035324
 20
-439.4515347586
 10
567.6931823144
 20
-439.6909051522
 10
563.2829283637
 20
-439.618502341
 10
558.9883023154
 20
-439.2344980565
 10
554.819490548
 20
-438.5398031145
 10
550.7863810225
 20
-437.5360652546
 10
546.8985398289
 20
-436.2256652321
 10
543.1651884973
 20
-434.6117111711
 10
539.5951821243
 20
-432.6980311923
 10
536.1969883707
 20
-430.4891643332
 10
532.9786673767
 20
-427.990349782
 10
531.7289544813
 20
-426.8978655887
  0
ENDSEC
  0
SECTION
  2
OBJECTS
  0
DICTIONARY
  5
C
330
0
100
AcDbDictionary
281
     1
  3
ACAD_GROUP
350
D
  3
ACAD_LAYOUT
350
1A
  3
ACAD_MLINESTYLE
350
17
  3
ACAD_PLOTSETTINGS
350
19
  3
ACAD_PLOTSTYLENAME
350
E
  3
ACAD_SCALELIST
350
47
  0
DICTIONARY
  5
D
102
{ACAD_REACTORS
330
C
102
}
330
C
100
AcDbDictionary
281
     1
  0
DICTIONARY
  5
1A
102
{ACAD_REACTORS
330
C
102
}
330
C
100
AcDbDictionary
281
     1
  3
Layout1
350
1E
  3
Layout2
350
26
  3
Model
350
22
  0
DICTIONARY
  5
17
102
{ACAD_REACTORS
330
C
102
}
330
C
100
AcDbDictionary
281
     1
  3
Standard
350
18
  0
DICTIONARY
  5
19
102
{ACAD_REACTORS
330
C
102
}
330
C
100
AcDbDictionary
281
     1
  0
ACDBDICTIONARYWDFLT
  5
E
102
{ACAD_REACTORS
330
C
102
}
330
C
100
AcDbDictionary
281
     1
  3
Normal
350
F
100
AcDbDictionaryWithDefault
340
F
  0
DICTIONARY
  5
47
102
{ACAD_REACTORS
330
C
102
}
330
C
100
AcDbDictionary
281
     1
  3
A0
350
48
  3
A1
350
49
  3
A2
350
4A
  3
A3
350
4B
  3
A4
350
4C
  3
A5
350
4D
  3
A6
350
4E
  3
A7
350
4F
  3
A8
350
50
  3
A9
350
51
  3
B0
350
52
  3
B1
350
53
  3
B2
350
54
  3
B3
350
55
  3
B4
350
56
  3
B5
350
57
  3
B6
350
58
  3
B7
350
59
  3
B8
350
5A
  3
B9
350
5B
  3
C0
350
5C
  3
C1
350
5D
  3
C2
350
5E
  3
C3
350
5F
  3
C4
350
60
  3
C5
350
61
  3
C6
350
62
  3
C7
350
63
  3
C8
350
64
  3
C9
350
65
  3
D0
350
66
  3
D1
350
67
  3
D2
350
68
  0
LAYOUT
  5
1E
102
{ACAD_REACTORS
330
1A
102
}
330
1A
100
AcDbPlotSettings
  1

  2
none_device
  4

  6

 40
0.0
 41
0.0
 42
0.0
 43
0.0
 44
0.0
 45
0.0
 46
0.0
 47
0.0
 48
0.0
 49
0.0
140
0.0
141
0.0
142
1.0
143
1.0
 70
   688
 72
     1
 73
     0
 74
     5
  7

 75
    16
147
1.0
148
0.0
149
0.0
100
AcDbLayout
  1
Layout1
 70
     1
 71
     1
 10
0.0
 20
0.0
 11
420.0
 21
297.0
 12
0.0
 22
0.0
 32
0.0
 14
1.0000000000E+20
 24
1.0000000000E+20
 34
1.0000000000E+20
 15
-1.0000000000E+20
 25
-1.0000000000E+20
 35
-1.0000000000E+20
146
0.0
 13
0.0
 23
0.0
 33
0.0
 16
1.0
 26
0.0
 36
0.0
 17
0.0
 27
1.0
 37
0.0
 76
     0
330
1B
  0
LAYOUT
  5
26
102
{ACAD_REACTORS
330
1A
102
}
330
1A
100
AcDbPlotSettings
  1

  2
none_device
  4

  6

 40
0.0
 41
0.0
 42
0.0
 43
0.0
 44
0.0
 45
0.0
 46
0.0
 47
0.0
 48
0.0
 49
0.0
140
0.0
141
0.0
142
1.0
143
1.0
 70
   688
 72
     1
 73
     0
 74
     5
  7

 75
    16
147
1.0
148
0.0
149
0.0
100
AcDbLayout
  1
Layout2
 70
     1
 71
     2
 10
0.0
 20
0.0
 11
0.0
 21
0.0
 12
0.0
 22
0.0
 32
0.0
 14
0.0
 24
0.0
 34
0.0
 15
0.0
 25
0.0
 35
0.0
146
0.0
 13
0.0
 23
0.0
 33
0.0
 16
1.0
 26
0.0
 36
0.0
 17
0.0
 27
1.0
 37
0.0
 76
     0
330
23
  0
LAYOUT
  5
22
102
{ACAD_REACTORS
330
1A
102
}
330
1A
100
AcDbPlotSettings
  1

  2
none_device
  4
Letter_(8.50_x_11.00_Inches)
  6

 40
6.35
 41
6.35
 42
6.35000508
 43
6.35000508
 44
215.9
 45
279.4
 46
0.0
 47
0.0
 48
0.0
 49
0.0
140
0.0
141
0.0
142
1.0
143
1.0
 70
  1712
 72
     1
 73
     0
 74
     0
  7

 75
     0
147
1.0
148
0.0
149
0.0
100
AcDbLayout
  1
Model
 70
     1
 71
     0
 10
0.0
 20
0.0
 11
279.4
 21
215.9
 12
0.0
 22
0.0
 32
0.0
 14
0.0
 24
0.0
 34
0.0
 15
279.4
 25
215.9
 35
0.0
146
0.0
 13
0.0
 23
0.0
 33
0.0
 16
1.0
 26
0.0
 36
0.0
 17
0.0
 27
1.0
 37
0.0
 76
     0
330
1F
331
29
  0
MLINESTYLE
  5
18
102
{ACAD_REACTORS
330
17
102
}
330
17
100
AcDbMlineStyle
  2
Standard
 70
     0
  3

 62
   256
 51
90.0
 52
90.0
 71
     2
 49
0.5
 62
   256
  6
BYLAYER
 49
-0.5
 62
   256
  6
BYLAYER
  0
ACDBPLACEHOLDER
  5
F
102
{ACAD_REACTORS
330
E
102
}
330
E
  0
SCALE
  5
48
102
{ACAD_REACTORS
330
47
102
}
330
47
100
AcDbScale
 70
     0
300
1:1
140
1.0
141
1.0
290
     1
  0
SCALE
  5
49
102
{ACAD_REACTORS
330
47
102
}
330
47
100
AcDbScale
 70
     0
300
1:2
140
1.0
141
2.0
290
     0
  0
SCALE
  5
4A
102
{ACAD_REACTORS
330
47
102
}
330
47
100
AcDbScale
 70
     0
300
1:4
140
1.0
141
4.0
290
     0
  0
SCALE
  5
4B
102
{ACAD_REACTORS
330
47
102
}
330
47
100
AcDbScale
 70
     0
300
1:5
140
1.0
141
5.0
290
     0
  0
SCALE
  5
4C
102
{ACAD_REACTORS
330
47
102
}
330
47
100
AcDbScale
 70
     0
300
1:8
140
1.0
141
8.0
290
     0
  0
SCALE
  5
4D
102
{ACAD_REACTORS
330
47
102
}
330
47
100
AcDbScale
 70
     0
300
1:10
140
1.0
141
10.0
290
     0
  0
SCALE
  5
4E
102
{ACAD_REACTORS
330
47
102
}
330
47
100
AcDbScale
 70
     0
300
1:16
140
1.0
141
16.0
290
     0
  0
SCALE
  5
4F
102
{ACAD_REACTORS
330
47
102
}
330
47
100
AcDbScale
 70
     0
300
1:20
140
1.0
141
20.0
290
     0
  0
SCALE
  5
50
102
{ACAD_REACTORS
330
47
102
}
330
47
100
AcDbScale
 70
     0
300
1:30
140
1.0
141
30.0
290
     0
  0
SCALE
  5
51
102
{ACAD_REACTORS
330
47
102
}
330
47
100
AcDbScale
 70
     0
300
1:40
140
1.0
141
40.0
290
     0
  0
SCALE
  5
52
102
{ACAD_REACTORS
330
47
102
}
330
47
100
AcDbScale
 70
     0
300
1:50
140
1.0
141
50.0
290
     0
  0
SCALE
  5
53
102
{ACAD_REACTORS
330
47
102
}
330
47
100
AcDbScale
 70
     0
300
1:100
140
1.0
141
100.0
290
     0
  0
SCALE
  5
54
102
{ACAD_REACTORS
330
47
102
}
330
47
100
AcDbScale
 70
     0
300
2:1
140
2.0
141
1.0
290
     0
  0
SCALE
  5
55
102
{ACAD_REACTORS
330
47
102
}
330
47
100
AcDbScale
 70
     0
300
4:1
140
4.0
141
1.0
290
     0
  0
SCALE
  5
56
102
{ACAD_REACTORS
330
47
102
}
330
47
100
AcDbScale
 70
     0
300
8:1
140
8.0
141
1.0
290
     0
  0
SCALE
  5
57
102
{ACAD_REACTORS
330
47
102
}
330
47
100
AcDbScale
 70
     0
300
10:1
140
10.0
141
1.0
290
     0
  0
SCALE
  5
58
102
{ACAD_REACTORS
330
47
102
}
330
47
100
AcDbScale
 70
     0
300
100:1
140
100.0
141
1.0
290
     0
  0
SCALE
  5
59
102
{ACAD_REACTORS
330
47
102
}
330
47
100
AcDbScale
 70
     0
300
1/128" = 1'-0"
140
0.0078125
141
12.0
290
     0
  0
SCALE
  5
5A
102
{ACAD_REACTORS
330
47
102
}
330
47
100
AcDbScale
 70
     0
300
1/64" = 1'-0"
140
0.015625
141
12.0
290
     0
  0
SCALE
  5
5B
102
{ACAD_REACTORS
330
47
102
}
330
47
100
AcDbScale
 70
     0
300
1/32" = 1'-0"
140
0.03125
141
12.0
290
     0
  0
SCALE
  5
5C
102
{ACAD_REACTORS
330
47
102
}
330
47
100
AcDbScale
 70
     0
300
1/16" = 1'-0"
140
0.0625
141
12.0
290
     0
  0
SCALE
  5
5D
102
{ACAD_REACTORS
330
47
102
}
330
47
100
AcDbScale
 70
     0
300
3/32" = 1'-0"
140
0.09375
141
12.0
290
     0
  0
SCALE
  5
5E
102
{ACAD_REACTORS
330
47
102
}
330
47
100
AcDbScale
 70
     0
300
1/8" = 1'-0"
140
0.125
141
12.0
290
     0
  0
SCALE
  5
5F
102
{ACAD_REACTORS
330
47
102
}
330
47
100
AcDbScale
 70
     0
300
3/16" = 1'-0"
140
0.1875
141
12.0
290
     0
  0
SCALE
  5
60
102
{ACAD_REACTORS
330
47
102
}
330
47
100
AcDbScale
 70
     0
300
1/4" = 1'-0"
140
0.25
141
12.0
290
     0
  0
SCALE
  5
61
102
{ACAD_REACTORS
330
47
102
}
330
47
100
AcDbScale
 70
     0
300
3/8" = 1'-0"
140
0.375
141
12.0
290
     0
  0
SCALE
  5
62
102
{ACAD_REACTORS
330
47
102
}
330
47
100
AcDbScale
 70
     0
300
1/2" = 1'-0"
140
0.5
141
12.0
290
     0
  0
SCALE
  5
63
102
{ACAD_REACTORS
330
47
102
}
330
47
100
AcDbScale
 70
     0
300
3/4" = 1'-0"
140
0.75
141
12.0
290
     0
  0
SCALE
  5
64
102
{ACAD_REACTORS
330
47
102
}
330
47
100
AcDbScale
 70
     0
300
1" = 1'-0"
140
1.0
141
12.0
290
     0
  0
SCALE
  5
65
102
{ACAD_REACTORS
330
47
102
}
330
47
100
AcDbScale
 70
     0
300
1-1/2" = 1'-0"
140
1.5
141
12.0
290
     0
  0
SCALE
  5
66
102
{ACAD_REACTORS
330
47
102
}
330
47
100
AcDbScale
 70
     0
300
3" = 1'-0"
140
3.0
141
12.0
290
     0
  0
SCALE
  5
67
102
{ACAD_REACTORS
330
47
102
}
330
47
100
AcDbScale
 70
     0
300
6" = 1'-0"
140
6.0
141
12.0
290
     0
  0
SCALE
  5
68
102
{ACAD_REACTORS
330
47
102
}
330
47
100
AcDbScale
 70
     0
300
1'-0" = 1'-0"
140
12.0
141
12.0
290
     0
  0
ENDSEC
  0
EOF
